ISO-10303-21;
HEADER;
FILE_DESCRIPTION (( 'STEP AP203' ),
    '1' );
FILE_NAME ('412548852_c_1.STEP',
    '2022-12-05T04:47:14',
    ( '' ),
    ( '' ),
    'SwSTEP 2.0',
    'SolidWorks 2014',
    '' );
FILE_SCHEMA (( 'CONFIG_CONTROL_DESIGN' ));
ENDSEC;

DATA;
#1 = LINE ( 'NONE', #320, #271 ) ;
#2 = VERTEX_POINT ( 'NONE', #253 ) ;
#3 = VECTOR ( 'NONE', #78, 1000.000000000000000 ) ;
#4 = DATE_AND_TIME ( #184, #155 ) ;
#5 = CARTESIAN_POINT ( 'NONE',  ( 29.00000000000000000, 0.0000000000000000000, 60.00000000000000000 ) ) ;
#6 = ORIENTED_EDGE ( 'NONE', *, *, #346, .T. ) ;
#7 = EDGE_CURVE ( 'NONE', #256, #311, #268, .T. ) ;
#8 = CARTESIAN_POINT ( 'NONE',  ( -1.631558038016670300E-030, 0.0000000000000000000, 60.00000000000000000 ) ) ;
#9 = DIRECTION ( 'NONE',  ( -1.000000000000000000, 0.0000000000000000000, -0.0000000000000000000 ) ) ;
#10 = VECTOR ( 'NONE', #310, 1000.000000000000000 ) ;
#11 = ORIENTED_EDGE ( 'NONE', *, *, #123, .T. ) ;
#12 = DIRECTION ( 'NONE',  ( 1.000000000000000000, -1.224646799147350000E-016, 0.0000000000000000000 ) ) ;
#13 = CARTESIAN_POINT ( 'NONE',  ( -6.735557395310440200E-015, -60.00000000000000000, 0.0000000000000000000 ) ) ;
#14 = DIRECTION ( 'NONE',  ( -1.000000000000000000, 0.0000000000000000000, -0.0000000000000000000 ) ) ;
#15 = EDGE_CURVE ( 'NONE', #217, #345, #20, .T. ) ;
#16 = ORIENTED_EDGE ( 'NONE', *, *, #158, .F. ) ;
#17 = CALENDAR_DATE ( 2022, 4, 12 ) ;
#18 = DIRECTION ( 'NONE',  ( 0.0000000000000000000, 0.0000000000000000000, 1.000000000000000000 ) ) ;
#19 = LINE ( 'NONE', #224, #43 ) ;
#20 = LINE ( 'NONE', #140, #161 ) ;
#21 = ADVANCED_BREP_SHAPE_REPRESENTATION ( '412548852_c_1', ( #76, #62 ), #197 ) ;
#22 = PRODUCT_DEFINITION ( 'UNKNOWN', '', #110, #325 ) ;
#23 = CARTESIAN_POINT ( 'NONE',  ( -25.85000000000000100, -57.00000000000000000, 0.0000000000000000000 ) ) ;
#24 = ORIENTED_EDGE ( 'NONE', *, *, #83, .T. ) ;
#25 = EDGE_CURVE ( 'NONE', #311, #165, #246, .T. ) ;
#26 = VECTOR ( 'NONE', #97, 1000.000000000000000 ) ;
#27 = ORIENTED_EDGE ( 'NONE', *, *, #25, .T. ) ;
#28 = EDGE_CURVE ( 'NONE', #227, #167, #80, .T. ) ;
#29 = PERSON_AND_ORGANIZATION ( #72, #288 ) ;
#30 = DIRECTION ( 'NONE',  ( -1.000000000000000000, 0.0000000000000000000, -0.0000000000000000000 ) ) ;
#31 = PERSON_AND_ORGANIZATION ( #72, #288 ) ;
#32 = ORIENTED_EDGE ( 'NONE', *, *, #368, .T. ) ;
#33 = CARTESIAN_POINT ( 'NONE',  ( -29.00000000000001100, -57.00000000000086000, 5.366818100653861600 ) ) ;
#34 = DIRECTION ( 'NONE',  ( -1.224646799147350000E-016, -1.000000000000000000, 0.0000000000000000000 ) ) ;
#35 = APPLICATION_CONTEXT ( 'configuration controlled 3d designs of mechanical parts and assemblies' ) ;
#36 = FACE_OUTER_BOUND ( 'NONE', #67, .T. ) ;
#37 = ORIENTED_EDGE ( 'NONE', *, *, #7, .T. ) ;
#38 = EDGE_CURVE ( 'NONE', #311, #117, #132, .T. ) ;
#39 = PERSON_AND_ORGANIZATION_ROLE ( 'classification_officer' ) ;
#40 = ADVANCED_FACE ( 'NONE', ( #36 ), #171, .F. ) ;
#41 = DIRECTION ( 'NONE',  ( -0.0000000000000000000, 0.0000000000000000000, 1.000000000000000000 ) ) ;
#42 = COORDINATED_UNIVERSAL_TIME_OFFSET ( 8, 0, .BEHIND. ) ;
#43 = VECTOR ( 'NONE', #44, 1000.000000000000000 ) ;
#44 = DIRECTION ( 'NONE',  ( -1.000000000000000000, 1.224646799147350000E-016, -0.0000000000000000000 ) ) ;
#45 = DIRECTION ( 'NONE',  ( 0.0000000000000000000, 1.000000000000000000, 0.0000000000000000000 ) ) ;
#46 = CARTESIAN_POINT ( 'NONE',  ( -29.00000000000000000, -10.85209947489000200, 60.00000000000000000 ) ) ;
#47 = LINE ( 'NONE', #200, #198 ) ;
#48 = ORIENTED_EDGE ( 'NONE', *, *, #15, .F. ) ;
#49 = DIRECTION ( 'NONE',  ( -1.000000000000000000, 0.0000000000000000000, -0.0000000000000000000 ) ) ;
#50 = CARTESIAN_POINT ( 'NONE',  ( -29.00000000000000400, -10.85209947489000000, 60.00000000000000000 ) ) ;
#51 = CALENDAR_DATE ( 2022, 4, 12 ) ;
#52 = LINE ( 'NONE', #243, #296 ) ;
#53 = CC_DESIGN_APPROVAL ( #89, ( #22 ) ) ;
#54 = VECTOR ( 'NONE', #239, 1000.000000000000000 ) ;
#55 = ORIENTED_EDGE ( 'NONE', *, *, #368, .F. ) ;
#56 = ORIENTED_EDGE ( 'NONE', *, *, #146, .T. ) ;
#57 = CARTESIAN_POINT ( 'NONE',  ( -7.347880794884119900E-015, -60.00000000000000000, 10.85209947489000000 ) ) ;
#58 = FACE_OUTER_BOUND ( 'NONE', #59, .T. ) ;
#59 = EDGE_LOOP ( 'NONE', ( #32, #103, #170, #152 ) ) ;
#60 = CARTESIAN_POINT ( 'NONE',  ( -6.735557395310440200E-015, -55.00000000000000000, 0.0000000000000000000 ) ) ;
#61 = PLANE ( 'NONE',  #176 ) ;
#62 = AXIS2_PLACEMENT_3D ( 'NONE', #360, #18, #299 ) ;
#63 =( LENGTH_UNIT ( ) NAMED_UNIT ( * ) SI_UNIT ( .MILLI., .METRE. ) );
#64 = LINE ( 'NONE', #13, #150 ) ;
#65 = APPROVAL_ROLE ( '' ) ;
#66 = ORIENTED_EDGE ( 'NONE', *, *, #119, .T. ) ;
#67 = EDGE_LOOP ( 'NONE', ( #241, #297, #205, #55, #232, #120, #261, #257 ) ) ;
#68 = DIRECTION ( 'NONE',  ( 1.000000000000000000, -1.224646799147350000E-016, 0.0000000000000000000 ) ) ;
#69 = DIRECTION ( 'NONE',  ( -1.224646799147350000E-016, -1.000000000000000000, 0.0000000000000000000 ) ) ;
#70 = AXIS2_PLACEMENT_3D ( 'NONE', #219, #34, #12 ) ;
#71 = CARTESIAN_POINT ( 'NONE',  ( -29.00000000000000400, -57.00000000000000000, 0.0000000000000000000 ) ) ;
#72 = PERSON ( 'UNSPECIFIED', 'UNSPECIFIED', 'UNSPECIFIED', ('UNSPECIFIED'), ('UNSPECIFIED'), ('UNSPECIFIED') ) ;
#73 = VECTOR ( 'NONE', #183, 1000.000000000000000 ) ;
#74 = EDGE_CURVE ( 'NONE', #177, #247, #169, .T. ) ;
#75 = CARTESIAN_POINT ( 'NONE',  ( 28.99999999999999300, -60.00000000000000000, 10.85209947489000200 ) ) ;
#76 = MANIFOLD_SOLID_BREP ( 'Volumenk\X\F6rper1', #365 ) ;
#77 = ADVANCED_FACE ( 'NONE', ( #347 ), #334, .F. ) ;
#78 = DIRECTION ( 'NONE',  ( -1.000000000000000000, 6.123233995736752500E-017, -6.123233995736752500E-017 ) ) ;
#79 = VECTOR ( 'NONE', #339, 1000.000000000000000 ) ;
#80 = LINE ( 'NONE', #223, #3 ) ;
#81 = CARTESIAN_POINT ( 'NONE',  ( 29.00000000000000000, 0.0000000000000000000, 0.0000000000000000000 ) ) ;
#82 = EDGE_CURVE ( 'NONE', #235, #165, #19, .T. ) ;
#83 = EDGE_CURVE ( 'NONE', #111, #2, #362, .T. ) ;
#84 = CARTESIAN_POINT ( 'NONE',  ( 29.00000000000000000, 0.0000000000000000000, 57.00000000000000000 ) ) ;
#85 = COORDINATED_UNIVERSAL_TIME_OFFSET ( 8, 0, .BEHIND. ) ;
#86 = ORIENTED_EDGE ( 'NONE', *, *, #146, .F. ) ;
#87 = APPROVAL_DATE_TIME ( #342, #93 ) ;
#88 = ORIENTED_EDGE ( 'NONE', *, *, #322, .F. ) ;
#89 = APPROVAL ( #134, 'UNSPECIFIED' ) ;
#90 = VECTOR ( 'NONE', #295, 1000.000000000000000 ) ;
#91 = ORIENTED_EDGE ( 'NONE', *, *, #315, .F. ) ;
#92 = PLANE ( 'NONE',  #363 ) ;
#93 = APPROVAL ( #107, 'UNSPECIFIED' ) ;
#94 = CALENDAR_DATE ( 2022, 4, 12 ) ;
#95 = VECTOR ( 'NONE', #41, 1000.000000000000000 ) ;
#96 = PERSON_AND_ORGANIZATION ( #72, #288 ) ;
#97 = DIRECTION ( 'NONE',  ( -1.000000000000000000, 0.0000000000000000000, -0.0000000000000000000 ) ) ;
#98 = ORIENTED_EDGE ( 'NONE', *, *, #279, .F. ) ;
#99 = CARTESIAN_POINT ( 'NONE',  ( 29.00000000000000400, -60.00000000000000000, 10.85209947489000000 ) ) ;
#100 = CARTESIAN_POINT ( 'NONE',  ( -29.00000000000000000, 0.0000000000000000000, 0.0000000000000000000 ) ) ;
#101 = LOCAL_TIME ( 20, 47, 14.00000000000000000, #42 ) ;
#102 = FACE_OUTER_BOUND ( 'NONE', #181, .T. ) ;
#103 = ORIENTED_EDGE ( 'NONE', *, *, #283, .F. ) ;
#104 = PERSON_AND_ORGANIZATION_ROLE ( 'design_supplier' ) ;
#105 = EDGE_CURVE ( 'NONE', #117, #202, #160, .T. ) ;
#106 = ORIENTED_EDGE ( 'NONE', *, *, #105, .F. ) ;
#107 = APPROVAL_STATUS ( 'not_yet_approved' ) ;
#108 = LOCAL_TIME ( 20, 47, 14.00000000000000000, #245 ) ;
#109 = LINE ( 'NONE', #196, #357 ) ;
#110 = PRODUCT_DEFINITION_FORMATION_WITH_SPECIFIED_SOURCE ( 'ANY', '', #275, .NOT_KNOWN. ) ;
#111 = VERTEX_POINT ( 'NONE', #50 ) ;
#112 = CARTESIAN_POINT ( 'NONE',  ( -29.00000000000000000, 0.0000000000000000000, 57.00000000000000000 ) ) ;
#113 = CARTESIAN_POINT ( 'NONE',  ( 29.00000000000000000, -1.775737858763657500E-015, 57.00000000000000000 ) ) ;
#114 = PERSON_AND_ORGANIZATION ( #72, #288 ) ;
#115 = VECTOR ( 'NONE', #45, 1000.000000000000000 ) ;
#116 = DIRECTION ( 'NONE',  ( 0.0000000000000000000, 0.0000000000000000000, -1.000000000000000000 ) ) ;
#117 = VERTEX_POINT ( 'NONE', #113 ) ;
#118 = CC_DESIGN_APPROVAL ( #93, ( #110 ) ) ;
#119 = EDGE_CURVE ( 'NONE', #345, #177, #109, .T. ) ;
#120 = ORIENTED_EDGE ( 'NONE', *, *, #7, .F. ) ;
#121 = AXIS2_PLACEMENT_3D ( 'NONE', #147, #175, #309 ) ;
#122 = ORIENTED_EDGE ( 'NONE', *, *, #130, .F. ) ;
#123 = EDGE_CURVE ( 'NONE', #256, #202, #313, .T. ) ;
#124 = DIRECTION ( 'NONE',  ( 1.224646799147350000E-016, 1.000000000000000000, 0.0000000000000000000 ) ) ;
#125 = CARTESIAN_POINT ( 'NONE',  ( 29.00000000000000700, -10.85209947489000200, 60.00000000000000000 ) ) ;
#126 = PLANE ( 'NONE',  #136 ) ;
#127 = CARTESIAN_POINT ( 'NONE',  ( 28.99999999999999600, -60.00000000000000000, 0.0000000000000000000 ) ) ;
#128 = APPROVAL ( #244, 'UNSPECIFIED' ) ;
#129 = APPLICATION_CONTEXT ( 'configuration controlled 3d designs of mechanical parts and assemblies' ) ;
#130 = EDGE_CURVE ( 'NONE', #358, #217, #185, .T. ) ;
#131 = SECURITY_CLASSIFICATION_LEVEL ( 'unclassified' ) ;
#132 = LINE ( 'NONE', #142, #281 ) ;
#133 = ORIENTED_EDGE ( 'NONE', *, *, #367, .T. ) ;
#134 = APPROVAL_STATUS ( 'not_yet_approved' ) ;
#135 = APPROVAL_ROLE ( '' ) ;
#136 = AXIS2_PLACEMENT_3D ( 'NONE', #329, #69, #68 ) ;
#137 = ADVANCED_FACE ( 'NONE', ( #179 ), #173, .T. ) ;
#138 = ADVANCED_FACE ( 'NONE', ( #204 ), #285, .T. ) ;
#139 = DIRECTION ( 'NONE',  ( -1.000000000000000000, 1.224646799147350000E-016, 0.0000000000000000000 ) ) ;
#140 = CARTESIAN_POINT ( 'NONE',  ( 29.00000000000000000, 0.0000000000000000000, 0.0000000000000000000 ) ) ;
#141 = ADVANCED_FACE ( 'NONE', ( #292 ), #148, .T. ) ;
#142 = CARTESIAN_POINT ( 'NONE',  ( -25.85000000000000100, 0.0000000000000000000, 57.00000000000000000 ) ) ;
#143 = VECTOR ( 'NONE', #274, 1000.000000000000000 ) ;
#144 = EDGE_LOOP ( 'NONE', ( #27, #317, #195, #157 ) ) ;
#145 = DIRECTION ( 'NONE',  ( -8.659560562354914400E-017, -0.7071067811865475700, 0.7071067811865475700 ) ) ;
#146 = EDGE_CURVE ( 'NONE', #2, #177, #335, .T. ) ;
#147 = CARTESIAN_POINT ( 'NONE',  ( -7.347880794884119900E-015, -60.00000000000000000, 0.0000000000000000000 ) ) ;
#148 = PLANE ( 'NONE',  #356 ) ;
#149 = PERSON_AND_ORGANIZATION ( #72, #288 ) ;
#150 = VECTOR ( 'NONE', #14, 1000.000000000000000 ) ;
#151 = LINE ( 'NONE', #298, #143 ) ;
#152 = ORIENTED_EDGE ( 'NONE', *, *, #82, .T. ) ;
#153 = CC_DESIGN_PERSON_AND_ORGANIZATION_ASSIGNMENT ( #276, #270, ( #110 ) ) ;
#154 = CARTESIAN_POINT ( 'NONE',  ( -3.818866207998919800E-015, -31.18340905032990000, 31.18340905032999900 ) ) ;
#155 = LOCAL_TIME ( 20, 47, 14.00000000000000000, #201 ) ;
#156 = LINE ( 'NONE', #352, #73 ) ;
#157 = ORIENTED_EDGE ( 'NONE', *, *, #38, .F. ) ;
#158 = EDGE_CURVE ( 'NONE', #235, #117, #47, .T. ) ;
#159 = CARTESIAN_POINT ( 'NONE',  ( -29.00000000000000000, 1.775737858763657500E-015, 60.00000000000000000 ) ) ;
#160 = LINE ( 'NONE', #84, #215 ) ;
#161 = VECTOR ( 'NONE', #308, 1000.000000000000000 ) ;
#162 = SECURITY_CLASSIFICATION ( '', '', #131 ) ;
#163 = CARTESIAN_POINT ( 'NONE',  ( 29.00000000000000000, -57.00000000000000700, 0.0000000000000000000 ) ) ;
#164 = PERSON_AND_ORGANIZATION_ROLE ( 'design_owner' ) ;
#165 = VERTEX_POINT ( 'NONE', #159 ) ;
#166 = CALENDAR_DATE ( 2022, 4, 12 ) ;
#167 = VERTEX_POINT ( 'NONE', #33 ) ;
#168 = ADVANCED_FACE ( 'NONE', ( #343 ), #354, .T. ) ;
#169 = LINE ( 'NONE', #75, #306 ) ;
#170 = ORIENTED_EDGE ( 'NONE', *, *, #315, .T. ) ;
#171 = PLANE ( 'NONE',  #286 ) ;
#172 = DIRECTION ( 'NONE',  ( -9.983211654951592900E-017, -0.7071067811865474600, -0.7071067811865474600 ) ) ;
#173 = PLANE ( 'NONE',  #333 ) ;
#174 = APPROVAL_PERSON_ORGANIZATION ( #149, #128, #135 ) ;
#175 = DIRECTION ( 'NONE',  ( -1.224646799147350000E-016, -1.000000000000000000, 0.0000000000000000000 ) ) ;
#176 = AXIS2_PLACEMENT_3D ( 'NONE', #8, #294, #30 ) ;
#177 = VERTEX_POINT ( 'NONE', #99 ) ;
#178 = EDGE_CURVE ( 'NONE', #2, #331, #233, .T. ) ;
#179 = FACE_OUTER_BOUND ( 'NONE', #251, .T. ) ;
#180 = ORIENTED_EDGE ( 'NONE', *, *, #38, .T. ) ;
#181 = EDGE_LOOP ( 'NONE', ( #273, #122, #88, #282 ) ) ;
#182 = ORIENTED_EDGE ( 'NONE', *, *, #178, .T. ) ;
#183 = DIRECTION ( 'NONE',  ( 0.0000000000000000000, -0.0000000000000000000, -1.000000000000000000 ) ) ;
#184 = CALENDAR_DATE ( 2022, 4, 12 ) ;
#185 = LINE ( 'NONE', #23, #10 ) ;
#186 = EDGE_LOOP ( 'NONE', ( #6, #338, #234, #199 ) ) ;
#187 = CARTESIAN_POINT ( 'NONE',  ( -29.00000000000000700, -60.00000000000000000, 0.0000000000000000000 ) ) ;
#188 = PLANE ( 'NONE',  #70 ) ;
#189 = APPROVAL_ROLE ( '' ) ;
#190 = ORIENTED_EDGE ( 'NONE', *, *, #74, .T. ) ;
#191 = CC_DESIGN_PERSON_AND_ORGANIZATION_ASSIGNMENT ( #259, #104, ( #110 ) ) ;
#192 = PRODUCT_DEFINITION_SHAPE ( 'NONE', 'NONE',  #22 ) ;
#193 = CARTESIAN_POINT ( 'NONE',  ( -29.00000000000000000, 0.0000000000000000000, 0.0000000000000000000 ) ) ;
#194 = DIRECTION ( 'NONE',  ( -1.224646799147350000E-016, -1.000000000000000000, 0.0000000000000000000 ) ) ;
#195 = ORIENTED_EDGE ( 'NONE', *, *, #158, .T. ) ;
#196 = CARTESIAN_POINT ( 'NONE',  ( 28.99999999999999300, -60.00000000000000000, 0.0000000000000000000 ) ) ;
#197 =( GEOMETRIC_REPRESENTATION_CONTEXT ( 3 ) GLOBAL_UNCERTAINTY_ASSIGNED_CONTEXT ( ( #212 ) ) GLOBAL_UNIT_ASSIGNED_CONTEXT ( ( #63, #326, #221 ) ) REPRESENTATION_CONTEXT ( 'NONE', 'WORKASPACE' ) );
#198 = VECTOR ( 'NONE', #255, 1000.000000000000000 ) ;
#199 = ORIENTED_EDGE ( 'NONE', *, *, #15, .T. ) ;
#200 = CARTESIAN_POINT ( 'NONE',  ( 29.00000000000000000, 0.0000000000000000000, 0.0000000000000000000 ) ) ;
#201 = COORDINATED_UNIVERSAL_TIME_OFFSET ( 8, 0, .BEHIND. ) ;
#202 = VERTEX_POINT ( 'NONE', #238 ) ;
#203 = CC_DESIGN_PERSON_AND_ORGANIZATION_ASSIGNMENT ( #96, #359, ( #22 ) ) ;
#204 = FACE_OUTER_BOUND ( 'NONE', #265, .T. ) ;
#205 = ORIENTED_EDGE ( 'NONE', *, *, #83, .F. ) ;
#206 = EDGE_LOOP ( 'NONE', ( #290, #348, #278, #11 ) ) ;
#207 = DIRECTION ( 'NONE',  ( 0.0000000000000000000, 0.7071067811865474600, 0.7071067811865474600 ) ) ;
#208 = CC_DESIGN_PERSON_AND_ORGANIZATION_ASSIGNMENT ( #291, #39, ( #162 ) ) ;
#209 = CARTESIAN_POINT ( 'NONE',  ( -29.00000000000000000, 1.775737858763657500E-015, 57.00000000000000000 ) ) ;
#210 = LOCAL_TIME ( 20, 47, 14.00000000000000000, #85 ) ;
#211 = SHAPE_DEFINITION_REPRESENTATION ( #192, #21 ) ;
#212 = UNCERTAINTY_MEASURE_WITH_UNIT (LENGTH_MEASURE( 1.000000000000000100E-005 ), #63, 'distance_accuracy_value', 'NONE');
#213 = CARTESIAN_POINT ( 'NONE',  ( 29.00000000000000000, -8.878689293818287400E-016, 60.00000000000000000 ) ) ;
#214 = DIRECTION ( 'NONE',  ( -0.0000000000000000000, 0.0000000000000000000, 1.000000000000000000 ) ) ;
#215 = VECTOR ( 'NONE', #284, 1000.000000000000000 ) ;
#216 = ORIENTED_EDGE ( 'NONE', *, *, #74, .F. ) ;
#217 = VERTEX_POINT ( 'NONE', #353 ) ;
#218 = APPLICATION_PROTOCOL_DEFINITION ( 'international standard', 'config_control_design', 1994, #129 ) ;
#219 = CARTESIAN_POINT ( 'NONE',  ( -25.85000000000000100, -57.00000000000000000, 0.0000000000000000000 ) ) ;
#220 = APPROVAL_DATE_TIME ( #287, #89 ) ;
#221 =( NAMED_UNIT ( * ) SI_UNIT ( $, .STERADIAN. ) SOLID_ANGLE_UNIT ( ) );
#222 = FACE_OUTER_BOUND ( 'NONE', #144, .T. ) ;
#223 = CARTESIAN_POINT ( 'NONE',  ( -3.818866207998919800E-015, -57.00000000000345300, 5.366818100656443500 ) ) ;
#224 = CARTESIAN_POINT ( 'NONE',  ( -1.495594930671380100E-030, 0.0000000000000000000, 60.00000000000000000 ) ) ;
#225 = CARTESIAN_POINT ( 'NONE',  ( -29.00000000000000000, 0.0000000000000000000, 0.0000000000000000000 ) ) ;
#226 = VECTOR ( 'NONE', #214, 1000.000000000000000 ) ;
#227 = VERTEX_POINT ( 'NONE', #318 ) ;
#228 = CARTESIAN_POINT ( 'NONE',  ( -25.85000000000000100, 0.0000000000000000000, 57.00000000000000000 ) ) ;
#229 = CC_DESIGN_DATE_AND_TIME_ASSIGNMENT ( #4, #300, ( #162 ) ) ;
#230 = APPROVAL_PERSON_ORGANIZATION ( #114, #93, #189 ) ;
#231 = LINE ( 'NONE', #5, #90 ) ;
#232 = ORIENTED_EDGE ( 'NONE', *, *, #25, .F. ) ;
#233 = LINE ( 'NONE', #187, #323 ) ;
#234 = ORIENTED_EDGE ( 'NONE', *, *, #130, .T. ) ;
#235 = VERTEX_POINT ( 'NONE', #213 ) ;
#236 = COORDINATED_UNIVERSAL_TIME_OFFSET ( 8, 0, .BEHIND. ) ;
#237 = ORIENTED_EDGE ( 'NONE', *, *, #119, .F. ) ;
#238 = CARTESIAN_POINT ( 'NONE',  ( 29.00000000000000400, -5.366818100653818000, 57.00000000000086700 ) ) ;
#239 = DIRECTION ( 'NONE',  ( 1.000000000000000000, -6.123233995736752500E-017, 6.123233995736752500E-017 ) ) ;
#240 = LINE ( 'NONE', #163, #226 ) ;
#241 = ORIENTED_EDGE ( 'NONE', *, *, #262, .F. ) ;
#242 = APPLICATION_PROTOCOL_DEFINITION ( 'international standard', 'config_control_design', 1994, #35 ) ;
#243 = CARTESIAN_POINT ( 'NONE',  ( -29.00000000000001400, -31.18340905032989600, 31.18340905032999500 ) ) ;
#244 = APPROVAL_STATUS ( 'not_yet_approved' ) ;
#245 = COORDINATED_UNIVERSAL_TIME_OFFSET ( 8, 0, .BEHIND. ) ;
#246 = LINE ( 'NONE', #193, #95 ) ;
#247 = VERTEX_POINT ( 'NONE', #125 ) ;
#248 = CC_DESIGN_APPROVAL ( #128, ( #162 ) ) ;
#249 = DIRECTION ( 'NONE',  ( 1.224646799147350000E-016, 1.000000000000000000, 0.0000000000000000000 ) ) ;
#250 = FACE_OUTER_BOUND ( 'NONE', #186, .T. ) ;
#251 = EDGE_LOOP ( 'NONE', ( #324, #37, #180, #307 ) ) ;
#252 = DIRECTION ( 'NONE',  ( 1.000000000000000000, -0.0000000000000000000, 0.0000000000000000000 ) ) ;
#253 = CARTESIAN_POINT ( 'NONE',  ( -29.00000000000001100, -60.00000000000000000, 10.85209947489000200 ) ) ;
#254 = CC_DESIGN_PERSON_AND_ORGANIZATION_ASSIGNMENT ( #29, #164, ( #275 ) ) ;
#255 = DIRECTION ( 'NONE',  ( -0.0000000000000000000, -0.0000000000000000000, -1.000000000000000000 ) ) ;
#256 = VERTEX_POINT ( 'NONE', #351 ) ;
#257 = ORIENTED_EDGE ( 'NONE', *, *, #322, .T. ) ;
#258 = CARTESIAN_POINT ( 'NONE',  ( -3.818866207998919800E-015, -5.366818100656423100, 57.00000000000348200 ) ) ;
#259 = PERSON_AND_ORGANIZATION ( #72, #288 ) ;
#260 = VECTOR ( 'NONE', #172, 1000.000000000000100 ) ;
#261 = ORIENTED_EDGE ( 'NONE', *, *, #349, .F. ) ;
#262 = EDGE_CURVE ( 'NONE', #331, #358, #369, .T. ) ;
#263 = DATE_AND_TIME ( #94, #108 ) ;
#264 = ORIENTED_EDGE ( 'NONE', *, *, #346, .F. ) ;
#265 = EDGE_LOOP ( 'NONE', ( #264, #66, #86, #182 ) ) ;
#266 = CARTESIAN_POINT ( 'NONE',  ( -1.631558038016670300E-030, -10.85209947489000200, 60.00000000000000000 ) ) ;
#267 = DIRECTION ( 'NONE',  ( 0.0000000000000000000, 0.0000000000000000000, -1.000000000000000000 ) ) ;
#268 = LINE ( 'NONE', #112, #115 ) ;
#269 = MECHANICAL_CONTEXT ( 'NONE', #129, 'mechanical' ) ;
#270 = PERSON_AND_ORGANIZATION_ROLE ( 'creator' ) ;
#271 = VECTOR ( 'NONE', #350, 1000.000000000000100 ) ;
#272 = DIRECTION ( 'NONE',  ( 0.0000000000000000000, 0.7071067811865474600, 0.7071067811865474600 ) ) ;
#273 = ORIENTED_EDGE ( 'NONE', *, *, #367, .F. ) ;
#274 = DIRECTION ( 'NONE',  ( -1.224646799147350000E-016, -1.000000000000000000, -0.0000000000000000000 ) ) ;
#275 = PRODUCT ( '412548852_c_1', '412548852_c_1', '', ( #269 ) ) ;
#276 = PERSON_AND_ORGANIZATION ( #72, #288 ) ;
#277 = DIRECTION ( 'NONE',  ( 9.983211654951592900E-017, 0.7071067811865474600, 0.7071067811865474600 ) ) ;
#278 = ORIENTED_EDGE ( 'NONE', *, *, #349, .T. ) ;
#279 = EDGE_CURVE ( 'NONE', #202, #227, #1, .T. ) ;
#280 = ADVANCED_FACE ( 'NONE', ( #250 ), #92, .T. ) ;
#281 = VECTOR ( 'NONE', #252, 1000.000000000000000 ) ;
#282 = ORIENTED_EDGE ( 'NONE', *, *, #28, .F. ) ;
#283 = EDGE_CURVE ( 'NONE', #247, #111, #304, .T. ) ;
#284 = DIRECTION ( 'NONE',  ( -1.224646799147350000E-016, -1.000000000000000000, 0.0000000000000000000 ) ) ;
#285 = PLANE ( 'NONE',  #121 ) ;
#286 = AXIS2_PLACEMENT_3D ( 'NONE', #225, #364, #249 ) ;
#287 = DATE_AND_TIME ( #166, #302 ) ;
#288 = ORGANIZATION ( 'UNSPECIFIED', 'UNSPECIFIED', '' ) ;
#289 = VECTOR ( 'NONE', #124, 1000.000000000000000 ) ;
#290 = ORIENTED_EDGE ( 'NONE', *, *, #279, .T. ) ;
#291 = PERSON_AND_ORGANIZATION ( #72, #288 ) ;
#292 = FACE_OUTER_BOUND ( 'NONE', #328, .T. ) ;
#293 = DIRECTION ( 'NONE',  ( 8.659560562354914400E-017, 0.7071067811865475700, -0.7071067811865475700 ) ) ;
#294 = DIRECTION ( 'NONE',  ( 0.0000000000000000000, 0.0000000000000000000, -1.000000000000000000 ) ) ;
#295 = DIRECTION ( 'NONE',  ( 1.224646799147350000E-016, 1.000000000000000000, -0.0000000000000000000 ) ) ;
#296 = VECTOR ( 'NONE', #272, 1000.000000000000100 ) ;
#297 = ORIENTED_EDGE ( 'NONE', *, *, #178, .F. ) ;
#298 = CARTESIAN_POINT ( 'NONE',  ( -29.00000000000000000, 0.0000000000000000000, 60.00000000000000000 ) ) ;
#299 = DIRECTION ( 'NONE',  ( 1.000000000000000000, 0.0000000000000000000, 0.0000000000000000000 ) ) ;
#300 = DATE_TIME_ROLE ( 'classification_date' ) ;
#301 = ADVANCED_FACE ( 'NONE', ( #58 ), #61, .F. ) ;
#302 = LOCAL_TIME ( 20, 47, 14.00000000000000000, #236 ) ;
#303 = CC_DESIGN_SECURITY_CLASSIFICATION ( #162, ( #110 ) ) ;
#304 = LINE ( 'NONE', #266, #26 ) ;
#305 = DIRECTION ( 'NONE',  ( 0.0000000000000000000, 0.0000000000000000000, 1.000000000000000000 ) ) ;
#306 = VECTOR ( 'NONE', #277, 1000.000000000000100 ) ;
#307 = ORIENTED_EDGE ( 'NONE', *, *, #105, .T. ) ;
#308 = DIRECTION ( 'NONE',  ( -1.224646799147350000E-016, -1.000000000000000000, 0.0000000000000000000 ) ) ;
#309 = DIRECTION ( 'NONE',  ( 1.000000000000000000, -1.224646799147350000E-016, 0.0000000000000000000 ) ) ;
#310 = DIRECTION ( 'NONE',  ( 1.000000000000000000, -1.224646799147350000E-016, 0.0000000000000000000 ) ) ;
#311 = VERTEX_POINT ( 'NONE', #209 ) ;
#312 = APPROVAL_PERSON_ORGANIZATION ( #31, #89, #65 ) ;
#313 = LINE ( 'NONE', #258, #79 ) ;
#314 = ORIENTED_EDGE ( 'NONE', *, *, #283, .T. ) ;
#315 = EDGE_CURVE ( 'NONE', #247, #235, #231, .T. ) ;
#316 = APPROVAL_DATE_TIME ( #263, #128 ) ;
#317 = ORIENTED_EDGE ( 'NONE', *, *, #82, .F. ) ;
#318 = CARTESIAN_POINT ( 'NONE',  ( 29.00000000000000400, -57.00000000000086700, 5.366818100653863300 ) ) ;
#319 = PRODUCT_RELATED_PRODUCT_CATEGORY ( 'detail', '', ( #275 ) ) ;
#320 = CARTESIAN_POINT ( 'NONE',  ( 29.00000000000001400, -31.18340905032990300, 31.18340905033000300 ) ) ;
#321 = DIRECTION ( 'NONE',  ( 0.0000000000000000000, -0.0000000000000000000, -1.000000000000000000 ) ) ;
#322 = EDGE_CURVE ( 'NONE', #167, #358, #156, .T. ) ;
#323 = VECTOR ( 'NONE', #321, 1000.000000000000000 ) ;
#324 = ORIENTED_EDGE ( 'NONE', *, *, #123, .F. ) ;
#325 = DESIGN_CONTEXT ( 'detailed design', #35, 'design' ) ;
#326 =( NAMED_UNIT ( * ) PLANE_ANGLE_UNIT ( ) SI_UNIT ( $, .RADIAN. ) );
#327 = CARTESIAN_POINT ( 'NONE',  ( -29.00000000000000400, -60.00000000000000000, 0.0000000000000000000 ) ) ;
#328 = EDGE_LOOP ( 'NONE', ( #56, #190, #314, #24 ) ) ;
#329 = CARTESIAN_POINT ( 'NONE',  ( -1.495594930671380100E-030, 0.0000000000000000000, 55.00000000000000000 ) ) ;
#330 = DATE_AND_TIME ( #51, #210 ) ;
#331 = VERTEX_POINT ( 'NONE', #327 ) ;
#332 = ADVANCED_FACE ( 'NONE', ( #222 ), #126, .F. ) ;
#333 = AXIS2_PLACEMENT_3D ( 'NONE', #228, #116, #49 ) ;
#334 = PLANE ( 'NONE',  #344 ) ;
#335 = LINE ( 'NONE', #57, #54 ) ;
#336 = DIRECTION ( 'NONE',  ( 0.0000000000000000000, -0.7071067811865474600, -0.7071067811865474600 ) ) ;
#337 = EDGE_LOOP ( 'NONE', ( #106, #16, #91, #216, #237, #48, #133, #98 ) ) ;
#338 = ORIENTED_EDGE ( 'NONE', *, *, #262, .T. ) ;
#339 = DIRECTION ( 'NONE',  ( 1.000000000000000000, -6.123233995736752500E-017, 6.123233995736752500E-017 ) ) ;
#340 = CARTESIAN_POINT ( 'NONE',  ( -7.347880794884119900E-015, -60.00000000000000000, 10.85209947489000200 ) ) ;
#341 = AXIS2_PLACEMENT_3D ( 'NONE', #154, #293, #207 ) ;
#342 = DATE_AND_TIME ( #17, #101 ) ;
#343 = FACE_OUTER_BOUND ( 'NONE', #206, .T. ) ;
#344 = AXIS2_PLACEMENT_3D ( 'NONE', #81, #139, #194 ) ;
#345 = VERTEX_POINT ( 'NONE', #127 ) ;
#346 = EDGE_CURVE ( 'NONE', #345, #331, #64, .T. ) ;
#347 = FACE_OUTER_BOUND ( 'NONE', #337, .T. ) ;
#348 = ORIENTED_EDGE ( 'NONE', *, *, #28, .T. ) ;
#349 = EDGE_CURVE ( 'NONE', #167, #256, #52, .T. ) ;
#350 = DIRECTION ( 'NONE',  ( -0.0000000000000000000, -0.7071067811865474600, -0.7071067811865474600 ) ) ;
#351 = CARTESIAN_POINT ( 'NONE',  ( -29.00000000000000400, -5.366818100653816300, 57.00000000000086700 ) ) ;
#352 = CARTESIAN_POINT ( 'NONE',  ( -29.00000000000000000, -57.00000000000000000, 0.0000000000000000000 ) ) ;
#353 = CARTESIAN_POINT ( 'NONE',  ( 28.99999999999999600, -57.00000000000000700, 0.0000000000000000000 ) ) ;
#354 = PLANE ( 'NONE',  #341 ) ;
#355 = DATE_TIME_ROLE ( 'creation_date' ) ;
#356 = AXIS2_PLACEMENT_3D ( 'NONE', #340, #145, #336 ) ;
#357 = VECTOR ( 'NONE', #305, 1000.000000000000000 ) ;
#358 = VERTEX_POINT ( 'NONE', #71 ) ;
#359 = PERSON_AND_ORGANIZATION_ROLE ( 'creator' ) ;
#360 = CARTESIAN_POINT ( 'NONE',  ( 0.0000000000000000000, 0.0000000000000000000, 0.0000000000000000000 ) ) ;
#361 = CC_DESIGN_DATE_AND_TIME_ASSIGNMENT ( #330, #355, ( #22 ) ) ;
#362 = LINE ( 'NONE', #46, #260 ) ;
#363 = AXIS2_PLACEMENT_3D ( 'NONE', #60, #267, #9 ) ;
#364 = DIRECTION ( 'NONE',  ( 1.000000000000000000, -1.224646799147350000E-016, 0.0000000000000000000 ) ) ;
#365 = CLOSED_SHELL ( 'NONE', ( #168, #366, #77, #137, #40, #280, #332, #301, #141, #138 ) ) ;
#366 = ADVANCED_FACE ( 'NONE', ( #102 ), #188, .F. ) ;
#367 = EDGE_CURVE ( 'NONE', #217, #227, #240, .T. ) ;
#368 = EDGE_CURVE ( 'NONE', #165, #111, #151, .T. ) ;
#369 = LINE ( 'NONE', #100, #289 ) ;
ENDSEC;
END-ISO-10303-21;
